ISO-10303-21;
HEADER;
/* Generated by software containing ST-Developer
 * from STEP Tools, Inc. (www.steptools.com) 
 */

FILE_DESCRIPTION(
/* description */ (
'PE100 Concentric Reduction Short, Ø125-075, SDR17 PN10');

FILE_NAME(
/* name */ 
'RDSE17-125-075',
/* time_stamp */ '2022-08-04T16:50:03+02:00',
/* author */ ('COAB Solutions'),
/* organization */ ('GPA Flowsystem'),
/* preprocessor_version */ 'ST-DEVELOPER v18.1',
/* originating_system */ '

FILE_SCHEMA (('AUTOMOTIVE_DESIGN { 1 0 10303 214 3 1 1 }'));
ENDSEC;

DATA;
#10=MECHANICAL_DESIGN_GEOMETRIC_PRESENTATION_REPRESENTATION('',(#13),#431);
#11=SHAPE_REPRESENTATION_RELATIONSHIP('SRR','None',#438,#12);
#12=ADVANCED_BREP_SHAPE_REPRESENTATION('',(#14),#430);
#13=STYLED_ITEM('',(#447),#14);
#14=MANIFOLD_SOLID_BREP('Solid2',#233);
#15=FACE_BOUND('',#47,.T.);
#16=FACE_BOUND('',#56,.T.);
#17=PLANE('',#264);
#18=PLANE('',#280);
#19=CONICAL_SURFACE('',#256,50.,0.77549749680946);
#20=CONICAL_SURFACE('',#260,41.25,0.634022719663422);
#21=CONICAL_SURFACE('',#268,36.3,0.634022719663422);
#22=CONICAL_SURFACE('',#272,44.,0.77549749680946);
#23=CONICAL_SURFACE('',#276,51.75,0.634022719663422);
#24=CONICAL_SURFACE('',#284,58.75,0.634022719663422);
#25=FACE_OUTER_BOUND('',#41,.T.);
#26=FACE_OUTER_BOUND('',#42,.T.);
#27=FACE_OUTER_BOUND('',#43,.T.);
#28=FACE_OUTER_BOUND('',#44,.T.);
#29=FACE_OUTER_BOUND('',#45,.T.);
#30=FACE_OUTER_BOUND('',#46,.T.);
#31=FACE_OUTER_BOUND('',#48,.T.);
#32=FACE_OUTER_BOUND('',#49,.T.);
#33=FACE_OUTER_BOUND('',#50,.T.);
#34=FACE_OUTER_BOUND('',#51,.T.);
#35=FACE_OUTER_BOUND('',#52,.T.);
#36=FACE_OUTER_BOUND('',#53,.T.);
#37=FACE_OUTER_BOUND('',#54,.T.);
#38=FACE_OUTER_BOUND('',#55,.T.);
#39=FACE_OUTER_BOUND('',#57,.T.);
#40=FACE_OUTER_BOUND('',#58,.T.);
#41=EDGE_LOOP('',(#149,#150,#151,#152));
#42=EDGE_LOOP('',(#153,#154,#155,#156));
#43=EDGE_LOOP('',(#157,#158,#159,#160));
#44=EDGE_LOOP('',(#161,#162,#163,#164));
#45=EDGE_LOOP('',(#165,#166,#167,#168));
#46=EDGE_LOOP('',(#169));
#47=EDGE_LOOP('',(#170));
#48=EDGE_LOOP('',(#171,#172,#173,#174));
#49=EDGE_LOOP('',(#175,#176,#177,#178));
#50=EDGE_LOOP('',(#179,#180,#181,#182));
#51=EDGE_LOOP('',(#183,#184,#185,#186));
#52=EDGE_LOOP('',(#187,#188,#189,#190));
#53=EDGE_LOOP('',(#191,#192,#193,#194));
#54=EDGE_LOOP('',(#195,#196,#197,#198));
#55=EDGE_LOOP('',(#199));
#56=EDGE_LOOP('',(#200));
#57=EDGE_LOOP('',(#201,#202,#203,#204));
#58=EDGE_LOOP('',(#205,#206,#207,#208));
#59=LINE('',#370,#73);
#60=LINE('',#375,#74);
#61=LINE('',#379,#75);
#62=LINE('',#383,#76);
#63=LINE('',#387,#77);
#64=LINE('',#393,#78);
#65=LINE('',#397,#79);
#66=LINE('',#401,#80);
#67=LINE('',#405,#81);
#68=LINE('',#409,#82);
#69=LINE('',#413,#83);
#70=LINE('',#417,#84);
#71=LINE('',#425,#85);
#72=LINE('',#427,#86);
#73=VECTOR('',#291,55.);
#74=VECTOR('',#298,50.);
#75=VECTOR('',#303,45.);
#76=VECTOR('',#308,41.25);
#77=VECTOR('',#313,37.5);
#78=VECTOR('',#320,33.);
#79=VECTOR('',#325,36.3);
#80=VECTOR('',#330,39.6);
#81=VECTOR('',#335,44.);
#82=VECTOR('',#340,48.4);
#83=VECTOR('',#345,51.75);
#84=VECTOR('',#350,55.1);
#85=VECTOR('',#361,62.5);
#86=VECTOR('',#364,58.75);
#87=CIRCLE('',#254,55.);
#88=CIRCLE('',#255,55.);
#89=CIRCLE('',#257,45.);
#90=CIRCLE('',#259,45.);
#91=CIRCLE('',#261,37.5);
#92=CIRCLE('',#263,37.5);
#93=CIRCLE('',#265,33.);
#94=CIRCLE('',#267,33.);
#95=CIRCLE('',#269,39.6);
#96=CIRCLE('',#271,39.6);
#97=CIRCLE('',#273,48.4);
#98=CIRCLE('',#275,48.4);
#99=CIRCLE('',#277,55.1);
#100=CIRCLE('',#279,55.1);
#101=CIRCLE('',#281,62.5);
#102=CIRCLE('',#283,62.5);
#103=VERTEX_POINT('',#367);
#104=VERTEX_POINT('',#369);
#105=VERTEX_POINT('',#373);
#106=VERTEX_POINT('',#377);
#107=VERTEX_POINT('',#381);
#108=VERTEX_POINT('',#385);
#109=VERTEX_POINT('',#389);
#110=VERTEX_POINT('',#392);
#111=VERTEX_POINT('',#396);
#112=VERTEX_POINT('',#400);
#113=VERTEX_POINT('',#404);
#114=VERTEX_POINT('',#408);
#115=VERTEX_POINT('',#412);
#116=VERTEX_POINT('',#416);
#117=VERTEX_POINT('',#420);
#118=VERTEX_POINT('',#423);
#119=EDGE_CURVE('',#103,#103,#87,.T.);
#120=EDGE_CURVE('',#103,#104,#59,.T.);
#121=EDGE_CURVE('',#104,#104,#88,.T.);
#122=EDGE_CURVE('',#105,#105,#89,.T.);
#123=EDGE_CURVE('',#105,#103,#60,.T.);
#124=EDGE_CURVE('',#106,#106,#90,.T.);
#125=EDGE_CURVE('',#106,#105,#61,.T.);
#126=EDGE_CURVE('',#107,#107,#91,.T.);
#127=EDGE_CURVE('',#107,#106,#62,.T.);
#128=EDGE_CURVE('',#108,#108,#92,.T.);
#129=EDGE_CURVE('',#108,#107,#63,.T.);
#130=EDGE_CURVE('',#109,#109,#93,.T.);
#131=EDGE_CURVE('',#109,#110,#64,.T.);
#132=EDGE_CURVE('',#110,#110,#94,.T.);
#133=EDGE_CURVE('',#110,#111,#65,.T.);
#134=EDGE_CURVE('',#111,#111,#95,.T.);
#135=EDGE_CURVE('',#111,#112,#66,.T.);
#136=EDGE_CURVE('',#112,#112,#96,.T.);
#137=EDGE_CURVE('',#112,#113,#67,.T.);
#138=EDGE_CURVE('',#113,#113,#97,.T.);
#139=EDGE_CURVE('',#113,#114,#68,.T.);
#140=EDGE_CURVE('',#114,#114,#98,.T.);
#141=EDGE_CURVE('',#114,#115,#69,.T.);
#142=EDGE_CURVE('',#115,#115,#99,.T.);
#143=EDGE_CURVE('',#115,#116,#70,.T.);
#144=EDGE_CURVE('',#116,#116,#100,.T.);
#145=EDGE_CURVE('',#117,#117,#101,.T.);
#146=EDGE_CURVE('',#118,#118,#102,.T.);
#147=EDGE_CURVE('',#118,#117,#71,.T.);
#148=EDGE_CURVE('',#104,#118,#72,.T.);
#149=ORIENTED_EDGE('',*,*,#119,.F.);
#150=ORIENTED_EDGE('',*,*,#120,.T.);
#151=ORIENTED_EDGE('',*,*,#121,.T.);
#152=ORIENTED_EDGE('',*,*,#120,.F.);
#153=ORIENTED_EDGE('',*,*,#122,.F.);
#154=ORIENTED_EDGE('',*,*,#123,.T.);
#155=ORIENTED_EDGE('',*,*,#119,.T.);
#156=ORIENTED_EDGE('',*,*,#123,.F.);
#157=ORIENTED_EDGE('',*,*,#124,.F.);
#158=ORIENTED_EDGE('',*,*,#125,.T.);
#159=ORIENTED_EDGE('',*,*,#122,.T.);
#160=ORIENTED_EDGE('',*,*,#125,.F.);
#161=ORIENTED_EDGE('',*,*,#126,.F.);
#162=ORIENTED_EDGE('',*,*,#127,.T.);
#163=ORIENTED_EDGE('',*,*,#124,.T.);
#164=ORIENTED_EDGE('',*,*,#127,.F.);
#165=ORIENTED_EDGE('',*,*,#128,.F.);
#166=ORIENTED_EDGE('',*,*,#129,.T.);
#167=ORIENTED_EDGE('',*,*,#126,.T.);
#168=ORIENTED_EDGE('',*,*,#129,.F.);
#169=ORIENTED_EDGE('',*,*,#128,.T.);
#170=ORIENTED_EDGE('',*,*,#130,.F.);
#171=ORIENTED_EDGE('',*,*,#130,.T.);
#172=ORIENTED_EDGE('',*,*,#131,.T.);
#173=ORIENTED_EDGE('',*,*,#132,.F.);
#174=ORIENTED_EDGE('',*,*,#131,.F.);
#175=ORIENTED_EDGE('',*,*,#132,.T.);
#176=ORIENTED_EDGE('',*,*,#133,.T.);
#177=ORIENTED_EDGE('',*,*,#134,.F.);
#178=ORIENTED_EDGE('',*,*,#133,.F.);
#179=ORIENTED_EDGE('',*,*,#134,.T.);
#180=ORIENTED_EDGE('',*,*,#135,.T.);
#181=ORIENTED_EDGE('',*,*,#136,.F.);
#182=ORIENTED_EDGE('',*,*,#135,.F.);
#183=ORIENTED_EDGE('',*,*,#136,.T.);
#184=ORIENTED_EDGE('',*,*,#137,.T.);
#185=ORIENTED_EDGE('',*,*,#138,.F.);
#186=ORIENTED_EDGE('',*,*,#137,.F.);
#187=ORIENTED_EDGE('',*,*,#138,.T.);
#188=ORIENTED_EDGE('',*,*,#139,.T.);
#189=ORIENTED_EDGE('',*,*,#140,.F.);
#190=ORIENTED_EDGE('',*,*,#139,.F.);
#191=ORIENTED_EDGE('',*,*,#140,.T.);
#192=ORIENTED_EDGE('',*,*,#141,.T.);
#193=ORIENTED_EDGE('',*,*,#142,.F.);
#194=ORIENTED_EDGE('',*,*,#141,.F.);
#195=ORIENTED_EDGE('',*,*,#142,.T.);
#196=ORIENTED_EDGE('',*,*,#143,.T.);
#197=ORIENTED_EDGE('',*,*,#144,.F.);
#198=ORIENTED_EDGE('',*,*,#143,.F.);
#199=ORIENTED_EDGE('',*,*,#145,.F.);
#200=ORIENTED_EDGE('',*,*,#144,.T.);
#201=ORIENTED_EDGE('',*,*,#146,.F.);
#202=ORIENTED_EDGE('',*,*,#147,.T.);
#203=ORIENTED_EDGE('',*,*,#145,.T.);
#204=ORIENTED_EDGE('',*,*,#147,.F.);
#205=ORIENTED_EDGE('',*,*,#121,.F.);
#206=ORIENTED_EDGE('',*,*,#148,.T.);
#207=ORIENTED_EDGE('',*,*,#146,.T.);
#208=ORIENTED_EDGE('',*,*,#148,.F.);
#209=CYLINDRICAL_SURFACE('',#253,55.);
#210=CYLINDRICAL_SURFACE('',#258,45.);
#211=CYLINDRICAL_SURFACE('',#262,37.5);
#212=CYLINDRICAL_SURFACE('',#266,33.);
#213=CYLINDRICAL_SURFACE('',#270,39.6);
#214=CYLINDRICAL_SURFACE('',#274,48.4);
#215=CYLINDRICAL_SURFACE('',#278,55.1);
#216=CYLINDRICAL_SURFACE('',#282,62.5);
#217=ADVANCED_FACE('',(#25),#209,.T.);
#218=ADVANCED_FACE('',(#26),#19,.T.);
#219=ADVANCED_FACE('',(#27),#210,.T.);
#220=ADVANCED_FACE('',(#28),#20,.T.);
#221=ADVANCED_FACE('',(#29),#211,.T.);
#222=ADVANCED_FACE('',(#30,#15),#17,.T.);
#223=ADVANCED_FACE('',(#31),#212,.F.);
#224=ADVANCED_FACE('',(#32),#21,.F.);
#225=ADVANCED_FACE('',(#33),#213,.F.);
#226=ADVANCED_FACE('',(#34),#22,.F.);
#227=ADVANCED_FACE('',(#35),#214,.F.);
#228=ADVANCED_FACE('',(#36),#23,.F.);
#229=ADVANCED_FACE('',(#37),#215,.F.);
#230=ADVANCED_FACE('',(#38,#16),#18,.T.);
#231=ADVANCED_FACE('',(#39),#216,.T.);
#232=ADVANCED_FACE('',(#40),#24,.T.);
#233=CLOSED_SHELL('',(#217,#218,#219,#220,#221,#222,#223,#224,#225,#226,
#227,#228,#229,#230,#231,#232));
#234=DERIVED_UNIT_ELEMENT(#236,1.);
#235=DERIVED_UNIT_ELEMENT(#433,-3.);
#236=(
MASS_UNIT()
NAMED_UNIT(*)
SI_UNIT($,.GRAM.)
);
#237=DERIVED_UNIT((#234,#235));
#238=MEASURE_REPRESENTATION_ITEM('density measure',
POSITIVE_RATIO_MEASURE(1.),#237);
#239=PROPERTY_DEFINITION_REPRESENTATION(#244,#241);
#240=PROPERTY_DEFINITION_REPRESENTATION(#245,#242);
#241=REPRESENTATION('material name',(#243),#430);
#242=REPRESENTATION('density',(#238),#430);
#243=DESCRIPTIVE_REPRESENTATION_ITEM('PE','PE');
#244=PROPERTY_DEFINITION('material property','material name',#440);
#245=PROPERTY_DEFINITION('material property','density of part',#440);
#246=DATE_TIME_ROLE('creation_date');
#247=APPLIED_DATE_AND_TIME_ASSIGNMENT(#248,#246,(#440));
#248=DATE_AND_TIME(#249,#250);
#249=CALENDAR_DATE(2021,19,10);
#250=LOCAL_TIME(0,0,0.,#251);
#251=COORDINATED_UNIVERSAL_TIME_OFFSET(0,0,.BEHIND.);
#252=AXIS2_PLACEMENT_3D('placement',#365,#285,#286);
#253=AXIS2_PLACEMENT_3D('',#366,#287,#288);
#254=AXIS2_PLACEMENT_3D('',#368,#289,#290);
#255=AXIS2_PLACEMENT_3D('',#371,#292,#293);
#256=AXIS2_PLACEMENT_3D('',#372,#294,#295);
#257=AXIS2_PLACEMENT_3D('',#374,#296,#297);
#258=AXIS2_PLACEMENT_3D('',#376,#299,#300);
#259=AXIS2_PLACEMENT_3D('',#378,#301,#302);
#260=AXIS2_PLACEMENT_3D('',#380,#304,#305);
#261=AXIS2_PLACEMENT_3D('',#382,#306,#307);
#262=AXIS2_PLACEMENT_3D('',#384,#309,#310);
#263=AXIS2_PLACEMENT_3D('',#386,#311,#312);
#264=AXIS2_PLACEMENT_3D('',#388,#314,#315);
#265=AXIS2_PLACEMENT_3D('',#390,#316,#317);
#266=AXIS2_PLACEMENT_3D('',#391,#318,#319);
#267=AXIS2_PLACEMENT_3D('',#394,#321,#322);
#268=AXIS2_PLACEMENT_3D('',#395,#323,#324);
#269=AXIS2_PLACEMENT_3D('',#398,#326,#327);
#270=AXIS2_PLACEMENT_3D('',#399,#328,#329);
#271=AXIS2_PLACEMENT_3D('',#402,#331,#332);
#272=AXIS2_PLACEMENT_3D('',#403,#333,#334);
#273=AXIS2_PLACEMENT_3D('',#406,#336,#337);
#274=AXIS2_PLACEMENT_3D('',#407,#338,#339);
#275=AXIS2_PLACEMENT_3D('',#410,#341,#342);
#276=AXIS2_PLACEMENT_3D('',#411,#343,#344);
#277=AXIS2_PLACEMENT_3D('',#414,#346,#347);
#278=AXIS2_PLACEMENT_3D('',#415,#348,#349);
#279=AXIS2_PLACEMENT_3D('',#418,#351,#352);
#280=AXIS2_PLACEMENT_3D('',#419,#353,#354);
#281=AXIS2_PLACEMENT_3D('',#421,#355,#356);
#282=AXIS2_PLACEMENT_3D('',#422,#357,#358);
#283=AXIS2_PLACEMENT_3D('',#424,#359,#360);
#284=AXIS2_PLACEMENT_3D('',#426,#362,#363);
#285=DIRECTION('axis',(0.,0.,1.));
#286=DIRECTION('refdir',(1.,0.,0.));
#287=DIRECTION('center_axis',(1.,0.,0.));
#288=DIRECTION('ref_axis',(0.,1.,0.));
#289=DIRECTION('center_axis',(1.,0.,0.));
#290=DIRECTION('ref_axis',(0.,0.,-1.));
#291=DIRECTION('',(-1.,0.,0.));
#292=DIRECTION('center_axis',(1.,0.,0.));
#293=DIRECTION('ref_axis',(0.,0.,-1.));
#294=DIRECTION('center_axis',(-1.,0.,0.));
#295=DIRECTION('ref_axis',(0.,1.,0.));
#296=DIRECTION('center_axis',(1.,0.,0.));
#297=DIRECTION('ref_axis',(0.,0.,-1.));
#298=DIRECTION('',(-0.714072839144579,-0.700071410926057,-8.57340212565167E-17));
#299=DIRECTION('center_axis',(1.,0.,0.));
#300=DIRECTION('ref_axis',(0.,1.,0.));
#301=DIRECTION('center_axis',(1.,0.,0.));
#302=DIRECTION('ref_axis',(0.,0.,-1.));
#303=DIRECTION('',(-1.,0.,0.));
#304=DIRECTION('center_axis',(-1.,0.,0.));
#305=DIRECTION('ref_axis',(0.,1.,0.));
#306=DIRECTION('center_axis',(1.,0.,0.));
#307=DIRECTION('ref_axis',(0.,0.,-1.));
#308=DIRECTION('',(-0.805651012649424,-0.592390450477518,-7.25469069022751E-17));
#309=DIRECTION('center_axis',(1.,0.,0.));
#310=DIRECTION('ref_axis',(0.,1.,0.));
#311=DIRECTION('center_axis',(1.,0.,0.));
#312=DIRECTION('ref_axis',(0.,0.,-1.));
#313=DIRECTION('',(-1.,0.,0.));
#314=DIRECTION('center_axis',(1.,0.,0.));
#315=DIRECTION('ref_axis',(0.,0.,-1.));
#316=DIRECTION('center_axis',(1.,0.,0.));
#317=DIRECTION('ref_axis',(0.,0.,-1.));
#318=DIRECTION('center_axis',(1.,0.,0.));
#319=DIRECTION('ref_axis',(0.,1.,0.));
#320=DIRECTION('',(-1.,0.,0.));
#321=DIRECTION('center_axis',(1.,0.,0.));
#322=DIRECTION('ref_axis',(0.,0.,-1.));
#323=DIRECTION('center_axis',(-1.,0.,0.));
#324=DIRECTION('ref_axis',(0.,1.,0.));
#325=DIRECTION('',(-0.805651012649425,-0.592390450477518,-7.25469069022751E-17));
#326=DIRECTION('center_axis',(1.,0.,0.));
#327=DIRECTION('ref_axis',(0.,0.,-1.));
#328=DIRECTION('center_axis',(1.,0.,0.));
#329=DIRECTION('ref_axis',(0.,1.,0.));
#330=DIRECTION('',(-1.,0.,0.));
#331=DIRECTION('center_axis',(1.,0.,0.));
#332=DIRECTION('ref_axis',(0.,0.,-1.));
#333=DIRECTION('center_axis',(-1.,0.,0.));
#334=DIRECTION('ref_axis',(0.,1.,0.));
#335=DIRECTION('',(-0.714072839144579,-0.700071410926057,-8.57340212565168E-17));
#336=DIRECTION('center_axis',(1.,0.,0.));
#337=DIRECTION('ref_axis',(0.,0.,-1.));
#338=DIRECTION('center_axis',(1.,0.,0.));
#339=DIRECTION('ref_axis',(0.,1.,0.));
#340=DIRECTION('',(-1.,0.,0.));
#341=DIRECTION('center_axis',(1.,0.,0.));
#342=DIRECTION('ref_axis',(0.,0.,-1.));
#343=DIRECTION('center_axis',(-1.,0.,0.));
#344=DIRECTION('ref_axis',(0.,1.,0.));
#345=DIRECTION('',(-0.805651012649425,-0.592390450477518,-7.25469069022751E-17));
#346=DIRECTION('center_axis',(1.,0.,0.));
#347=DIRECTION('ref_axis',(0.,0.,-1.));
#348=DIRECTION('center_axis',(1.,0.,0.));
#349=DIRECTION('ref_axis',(0.,1.,0.));
#350=DIRECTION('',(-1.,0.,0.));
#351=DIRECTION('center_axis',(1.,0.,0.));
#352=DIRECTION('ref_axis',(0.,0.,-1.));
#353=DIRECTION('center_axis',(-1.,0.,0.));
#354=DIRECTION('ref_axis',(0.,0.,1.));
#355=DIRECTION('center_axis',(1.,0.,0.));
#356=DIRECTION('ref_axis',(0.,0.,-1.));
#357=DIRECTION('center_axis',(1.,0.,0.));
#358=DIRECTION('ref_axis',(0.,1.,0.));
#359=DIRECTION('center_axis',(1.,0.,0.));
#360=DIRECTION('ref_axis',(0.,0.,-1.));
#361=DIRECTION('',(-1.,0.,0.));
#362=DIRECTION('center_axis',(-1.,0.,0.));
#363=DIRECTION('ref_axis',(0.,1.,0.));
#364=DIRECTION('',(-0.805651012649425,-0.592390450477518,-7.25469069022751E-17));
#365=CARTESIAN_POINT('',(0.,0.,0.));
#366=CARTESIAN_POINT('Origin',(28.3,0.,0.));
#367=CARTESIAN_POINT('',(33.4,-55.,-6.73555739531044E-15));
#368=CARTESIAN_POINT('Origin',(33.4,0.,0.));
#369=CARTESIAN_POINT('',(23.2,-55.,-6.73555739531044E-15));
#370=CARTESIAN_POINT('',(28.3,-55.,-6.73555739531044E-15));
#371=CARTESIAN_POINT('Origin',(23.2,0.,0.));
#372=CARTESIAN_POINT('Origin',(38.5,0.,0.));
#373=CARTESIAN_POINT('',(43.6,-45.,-5.51091059616309E-15));
#374=CARTESIAN_POINT('Origin',(43.6,0.,0.));
#375=CARTESIAN_POINT('',(38.5,-50.,-6.12323399573677E-15));
#376=CARTESIAN_POINT('Origin',(48.7,0.,0.));
#377=CARTESIAN_POINT('',(53.8,-45.,-5.51091059616309E-15));
#378=CARTESIAN_POINT('Origin',(53.8,0.,0.));
#379=CARTESIAN_POINT('',(48.7,-45.,-5.51091059616309E-15));
#380=CARTESIAN_POINT('Origin',(58.9,0.,0.));
#381=CARTESIAN_POINT('',(64.,-37.5,-4.59242549680257E-15));
#382=CARTESIAN_POINT('Origin',(64.,0.,0.));
#383=CARTESIAN_POINT('',(58.9,-41.25,-5.05166804648283E-15));
#384=CARTESIAN_POINT('Origin',(68.,0.,0.));
#385=CARTESIAN_POINT('',(72.,-37.5,-4.59242549680258E-15));
#386=CARTESIAN_POINT('Origin',(72.,0.,0.));
#387=CARTESIAN_POINT('',(68.,-37.5,-4.59242549680258E-15));
#388=CARTESIAN_POINT('Origin',(72.,33.,0.));
#389=CARTESIAN_POINT('',(72.,-33.,-4.04133443718627E-15));
#390=CARTESIAN_POINT('Origin',(72.,0.,0.));
#391=CARTESIAN_POINT('Origin',(67.266,0.,0.));
#392=CARTESIAN_POINT('',(62.532,-33.,-4.04133443718627E-15));
#393=CARTESIAN_POINT('',(67.266,-33.,-4.04133443718627E-15));
#394=CARTESIAN_POINT('Origin',(62.532,0.,0.));
#395=CARTESIAN_POINT('Origin',(58.044,0.,0.));
#396=CARTESIAN_POINT('',(53.556,-39.6,-4.84960132462352E-15));
#397=CARTESIAN_POINT('',(58.044,-36.3,-4.44546788090489E-15));
#398=CARTESIAN_POINT('Origin',(53.556,0.,0.));
#399=CARTESIAN_POINT('Origin',(48.822,0.,0.));
#400=CARTESIAN_POINT('',(44.088,-39.6,-4.84960132462352E-15));
#401=CARTESIAN_POINT('',(48.822,-39.6,-4.84960132462352E-15));
#402=CARTESIAN_POINT('Origin',(44.088,0.,0.));
#403=CARTESIAN_POINT('Origin',(39.6,0.,0.));
#404=CARTESIAN_POINT('',(35.112,-48.4,-5.92729050787319E-15));
#405=CARTESIAN_POINT('',(39.6,-44.,-5.38844591624836E-15));
#406=CARTESIAN_POINT('Origin',(35.112,0.,0.));
#407=CARTESIAN_POINT('Origin',(28.612,0.,0.));
#408=CARTESIAN_POINT('',(22.112,-48.4,-5.92729050787319E-15));
#409=CARTESIAN_POINT('',(28.612,-48.4,-5.92729050787319E-15));
#410=CARTESIAN_POINT('Origin',(22.112,0.,0.));
#411=CARTESIAN_POINT('Origin',(17.556,0.,0.));
#412=CARTESIAN_POINT('',(13.,-55.1,-6.74780386330192E-15));
#413=CARTESIAN_POINT('',(17.556,-51.75,-6.33754718558755E-15));
#414=CARTESIAN_POINT('Origin',(13.,0.,0.));
#415=CARTESIAN_POINT('Origin',(6.5,0.,0.));
#416=CARTESIAN_POINT('',(0.,-55.1,-6.74780386330192E-15));
#417=CARTESIAN_POINT('',(6.5,-55.1,-6.74780386330192E-15));
#418=CARTESIAN_POINT('Origin',(0.,0.,0.));
#419=CARTESIAN_POINT('Origin',(0.,62.5,0.));
#420=CARTESIAN_POINT('',(0.,-62.5,-7.65404249467096E-15));
#421=CARTESIAN_POINT('Origin',(0.,0.,0.));
#422=CARTESIAN_POINT('Origin',(6.5,0.,0.));
#423=CARTESIAN_POINT('',(13.,-62.5,-7.65404249467096E-15));
#424=CARTESIAN_POINT('Origin',(13.,0.,0.));
#425=CARTESIAN_POINT('',(6.5,-62.5,-7.65404249467096E-15));
#426=CARTESIAN_POINT('Origin',(18.1,0.,0.));
#427=CARTESIAN_POINT('',(18.1,-58.75,-7.1947999449907E-15));
#428=UNCERTAINTY_MEASURE_WITH_UNIT(LENGTH_MEASURE(0.01),#432,
'DISTANCE_ACCURACY_VALUE',
'Maximum model space distance between geometric entities at asserted c
onnectivities');
#429=UNCERTAINTY_MEASURE_WITH_UNIT(LENGTH_MEASURE(0.01),#432,
'DISTANCE_ACCURACY_VALUE',
'Maximum model space distance between geometric entities at asserted c
onnectivities');
#430=(
GEOMETRIC_REPRESENTATION_CONTEXT(3)
GLOBAL_UNCERTAINTY_ASSIGNED_CONTEXT((#428))
GLOBAL_UNIT_ASSIGNED_CONTEXT((#432,#434,#435))
REPRESENTATION_CONTEXT('','3D')
);
#431=(
GEOMETRIC_REPRESENTATION_CONTEXT(3)
GLOBAL_UNCERTAINTY_ASSIGNED_CONTEXT((#429))
GLOBAL_UNIT_ASSIGNED_CONTEXT((#432,#434,#435))
REPRESENTATION_CONTEXT('','3D')
);
#432=(
LENGTH_UNIT()
NAMED_UNIT(*)
SI_UNIT(.MILLI.,.METRE.)
);
#433=(
LENGTH_UNIT()
NAMED_UNIT(*)
SI_UNIT(.CENTI.,.METRE.)
);
#434=(
NAMED_UNIT(*)
PLANE_ANGLE_UNIT()
SI_UNIT($,.RADIAN.)
);
#435=(
NAMED_UNIT(*)
SI_UNIT($,.STERADIAN.)
SOLID_ANGLE_UNIT()
);
#436=SHAPE_DEFINITION_REPRESENTATION(#437,#438);
#437=PRODUCT_DEFINITION_SHAPE('',$,#440);
#438=SHAPE_REPRESENTATION('',(#252),#430);
#439=PRODUCT_DEFINITION_CONTEXT('part definition',#444,'design');
#440=PRODUCT_DEFINITION('RDSE17-125-075','RDSE17-125-075',#441,#439);
#441=PRODUCT_DEFINITION_FORMATION('0',$,#446);
#442=PRODUCT_RELATED_PRODUCT_CATEGORY('RDSE17-125-075','RDSE17-125-075',
(#446));
#443=APPLICATION_PROTOCOL_DEFINITION('international standard',
'automotive_design',2009,#444);
#444=APPLICATION_CONTEXT(
'Core Data for Automotive Mechanical Design Process');
#445=PRODUCT_CONTEXT('part definition',#444,'mechanical');
#446=PRODUCT('RDSE17-125-075','RDSE17-125-075',
'PE100 Concentric Reduction Short, \X\D8125-075, SDR17 PN10',(#445));
#447=PRESENTATION_STYLE_ASSIGNMENT((#448));
#448=SURFACE_STYLE_USAGE(.BOTH.,#451);
#449=SURFACE_STYLE_RENDERING_WITH_PROPERTIES($,#455,(#450));
#450=SURFACE_STYLE_TRANSPARENT(0.);
#451=SURFACE_SIDE_STYLE('',(#452,#449));
#452=SURFACE_STYLE_FILL_AREA(#453);
#453=FILL_AREA_STYLE('',(#454));
#454=FILL_AREA_STYLE_COLOUR('',#455);
#455=COLOUR_RGB('',0.109803921568627,0.109803921568627,0.129411764705882);
ENDSEC;
END-ISO-10303-21;
