ISO-10303-21;
HEADER;
/* Generated by software containing ST-Developer
 * from STEP Tools, Inc. (www.steptools.com) 
 */

FILE_DESCRIPTION(
/* description */ ('PVC 45° Wye, Ø160, PN16'),
/* implementation_level */ '2;1');

FILE_NAME(
/* name */ 
'TY40U-160',
/* time_stamp */ '2022-05-11T16:06:50+02:00',
/* author */ ('COAB Solutions'),
/* organization */ ('GPA Flowsystem'),
/* preprocessor_version */ 'ST-DEVELOPER v18.1',
/* originating_system */ 'www.coabsolutions.com',
/* authorisation */ '');

FILE_SCHEMA (('AUTOMOTIVE_DESIGN { 1 0 10303 214 3 1 1 }'));
ENDSEC;

DATA;
#10=MECHANICAL_DESIGN_GEOMETRIC_PRESENTATION_REPRESENTATION('',(#13),#508);
#11=SHAPE_REPRESENTATION_RELATIONSHIP('SRR','None',#515,#12);
#12=ADVANCED_BREP_SHAPE_REPRESENTATION('',(#14),#507);
#13=STYLED_ITEM('',(#524),#14);
#14=MANIFOLD_SOLID_BREP('Solid2',#268);
#15=FACE_BOUND('',#79,.T.);
#16=FACE_BOUND('',#83,.T.);
#17=FACE_BOUND('',#86,.T.);
#18=FACE_BOUND('',#90,.T.);
#19=FACE_BOUND('',#94,.T.);
#20=FACE_BOUND('',#97,.T.);
#21=PLANE('',#298);
#22=PLANE('',#306);
#23=PLANE('',#311);
#24=PLANE('',#321);
#25=PLANE('',#327);
#26=PLANE('',#330);
#27=ELLIPSE('',#293,237.7944596075,91.);
#28=ELLIPSE('',#294,98.4976902266078,91.);
#29=ELLIPSE('',#296,98.4976902266078,91.);
#30=ELLIPSE('',#297,237.7944596075,91.);
#31=ELLIPSE('',#315,73.8191480599414,68.2);
#32=ELLIPSE('',#316,178.215188409138,68.2);
#33=ELLIPSE('',#317,178.215188409138,68.2);
#34=ELLIPSE('',#318,73.8191480599414,68.2);
#35=LINE('',#437,#44);
#36=LINE('',#443,#45);
#37=LINE('',#460,#46);
#38=LINE('',#475,#47);
#39=LINE('',#486,#48);
#40=LINE('',#493,#49);
#41=LINE('',#494,#50);
#42=LINE('',#497,#51);
#43=LINE('',#502,#52);
#44=VECTOR('',#343,90.9999999999999);
#45=VECTOR('',#348,90.9999999999999);
#46=VECTOR('',#371,91.);
#47=VECTOR('',#390,68.2);
#48=VECTOR('',#403,80.);
#49=VECTOR('',#412,68.2000000000002);
#50=VECTOR('',#413,68.2000000000002);
#51=VECTOR('',#416,80.);
#52=VECTOR('',#423,80.0000000000001);
#53=CYLINDRICAL_SURFACE('',#292,90.9999999999999);
#54=CYLINDRICAL_SURFACE('',#305,91.);
#55=CYLINDRICAL_SURFACE('',#313,68.2);
#56=CYLINDRICAL_SURFACE('',#319,80.);
#57=CYLINDRICAL_SURFACE('',#323,68.2000000000002);
#58=CYLINDRICAL_SURFACE('',#325,80.);
#59=CYLINDRICAL_SURFACE('',#328,80.0000000000001);
#60=FACE_OUTER_BOUND('',#76,.T.);
#61=FACE_OUTER_BOUND('',#77,.T.);
#62=FACE_OUTER_BOUND('',#78,.T.);
#63=FACE_OUTER_BOUND('',#80,.T.);
#64=FACE_OUTER_BOUND('',#81,.T.);
#65=FACE_OUTER_BOUND('',#82,.T.);
#66=FACE_OUTER_BOUND('',#84,.T.);
#67=FACE_OUTER_BOUND('',#85,.T.);
#68=FACE_OUTER_BOUND('',#87,.T.);
#69=FACE_OUTER_BOUND('',#88,.T.);
#70=FACE_OUTER_BOUND('',#89,.T.);
#71=FACE_OUTER_BOUND('',#91,.T.);
#72=FACE_OUTER_BOUND('',#92,.T.);
#73=FACE_OUTER_BOUND('',#93,.T.);
#74=FACE_OUTER_BOUND('',#95,.T.);
#75=FACE_OUTER_BOUND('',#96,.T.);
#76=EDGE_LOOP('',(#177,#178,#179,#180));
#77=EDGE_LOOP('',(#181,#182,#183,#184,#185,#186,#187,#188,#189,#190));
#78=EDGE_LOOP('',(#191));
#79=EDGE_LOOP('',(#192));
#80=EDGE_LOOP('',(#193,#194,#195,#196,#197));
#81=EDGE_LOOP('',(#198,#199,#200,#201,#202,#203,#204,#205));
#82=EDGE_LOOP('',(#206));
#83=EDGE_LOOP('',(#207));
#84=EDGE_LOOP('',(#208,#209,#210,#211));
#85=EDGE_LOOP('',(#212));
#86=EDGE_LOOP('',(#213));
#87=EDGE_LOOP('',(#214,#215,#216,#217,#218,#219,#220));
#88=EDGE_LOOP('',(#221,#222,#223,#224));
#89=EDGE_LOOP('',(#225));
#90=EDGE_LOOP('',(#226));
#91=EDGE_LOOP('',(#227,#228,#229,#230,#231,#232,#233,#234,#235,#236));
#92=EDGE_LOOP('',(#237,#238,#239,#240));
#93=EDGE_LOOP('',(#241));
#94=EDGE_LOOP('',(#242));
#95=EDGE_LOOP('',(#243,#244,#245,#246));
#96=EDGE_LOOP('',(#247));
#97=EDGE_LOOP('',(#248));
#98=CIRCLE('',#289,90.4999999999999);
#99=CIRCLE('',#290,0.5);
#100=CIRCLE('',#291,90.9999999999999);
#101=CIRCLE('',#295,90.9999999999999);
#102=CIRCLE('',#299,80.0000000000002);
#103=CIRCLE('',#301,90.5);
#104=CIRCLE('',#302,0.5);
#105=CIRCLE('',#303,91.);
#106=CIRCLE('',#304,91.);
#107=CIRCLE('',#307,80.);
#108=CIRCLE('',#309,0.5);
#109=CIRCLE('',#310,90.4999999999999);
#110=CIRCLE('',#312,80.);
#111=CIRCLE('',#314,68.2);
#112=CIRCLE('',#320,80.);
#113=CIRCLE('',#322,68.2);
#114=CIRCLE('',#324,68.2000000000002);
#115=CIRCLE('',#326,80.);
#116=CIRCLE('',#329,80.0000000000001);
#117=VERTEX_POINT('',#430);
#118=VERTEX_POINT('',#432);
#119=VERTEX_POINT('',#436);
#120=VERTEX_POINT('',#438);
#121=VERTEX_POINT('',#440);
#122=VERTEX_POINT('',#442);
#123=VERTEX_POINT('',#445);
#124=VERTEX_POINT('',#449);
#125=VERTEX_POINT('',#452);
#126=VERTEX_POINT('',#454);
#127=VERTEX_POINT('',#456);
#128=VERTEX_POINT('',#462);
#129=VERTEX_POINT('',#465);
#130=VERTEX_POINT('',#469);
#131=VERTEX_POINT('',#472);
#132=VERTEX_POINT('',#474);
#133=VERTEX_POINT('',#476);
#134=VERTEX_POINT('',#478);
#135=VERTEX_POINT('',#480);
#136=VERTEX_POINT('',#484);
#137=VERTEX_POINT('',#488);
#138=VERTEX_POINT('',#491);
#139=VERTEX_POINT('',#496);
#140=VERTEX_POINT('',#501);
#141=EDGE_CURVE('',#117,#117,#98,.T.);
#142=EDGE_CURVE('',#117,#118,#99,.T.);
#143=EDGE_CURVE('',#118,#118,#100,.T.);
#144=EDGE_CURVE('',#118,#119,#35,.T.);
#145=EDGE_CURVE('',#119,#120,#27,.T.);
#146=EDGE_CURVE('',#120,#121,#28,.T.);
#147=EDGE_CURVE('',#121,#122,#36,.T.);
#148=EDGE_CURVE('',#122,#122,#101,.T.);
#149=EDGE_CURVE('',#121,#123,#29,.T.);
#150=EDGE_CURVE('',#123,#119,#30,.T.);
#151=EDGE_CURVE('',#124,#124,#102,.T.);
#152=EDGE_CURVE('',#125,#125,#103,.T.);
#153=EDGE_CURVE('',#125,#126,#104,.T.);
#154=EDGE_CURVE('',#126,#127,#105,.T.);
#155=EDGE_CURVE('',#127,#126,#106,.T.);
#156=EDGE_CURVE('',#120,#127,#37,.T.);
#157=EDGE_CURVE('',#128,#128,#107,.T.);
#158=EDGE_CURVE('',#122,#129,#108,.T.);
#159=EDGE_CURVE('',#129,#129,#109,.T.);
#160=EDGE_CURVE('',#130,#130,#110,.T.);
#161=EDGE_CURVE('',#131,#131,#111,.T.);
#162=EDGE_CURVE('',#131,#132,#38,.T.);
#163=EDGE_CURVE('',#133,#132,#31,.T.);
#164=EDGE_CURVE('',#134,#133,#32,.T.);
#165=EDGE_CURVE('',#135,#134,#33,.T.);
#166=EDGE_CURVE('',#132,#135,#34,.T.);
#167=EDGE_CURVE('',#136,#136,#112,.T.);
#168=EDGE_CURVE('',#136,#130,#39,.T.);
#169=EDGE_CURVE('',#137,#137,#113,.T.);
#170=EDGE_CURVE('',#138,#138,#114,.T.);
#171=EDGE_CURVE('',#138,#134,#40,.T.);
#172=EDGE_CURVE('',#132,#137,#41,.T.);
#173=EDGE_CURVE('',#128,#139,#42,.T.);
#174=EDGE_CURVE('',#139,#139,#115,.T.);
#175=EDGE_CURVE('',#124,#140,#43,.T.);
#176=EDGE_CURVE('',#140,#140,#116,.T.);
#177=ORIENTED_EDGE('',*,*,#141,.T.);
#178=ORIENTED_EDGE('',*,*,#142,.T.);
#179=ORIENTED_EDGE('',*,*,#143,.T.);
#180=ORIENTED_EDGE('',*,*,#142,.F.);
#181=ORIENTED_EDGE('',*,*,#143,.F.);
#182=ORIENTED_EDGE('',*,*,#144,.T.);
#183=ORIENTED_EDGE('',*,*,#145,.T.);
#184=ORIENTED_EDGE('',*,*,#146,.T.);
#185=ORIENTED_EDGE('',*,*,#147,.T.);
#186=ORIENTED_EDGE('',*,*,#148,.F.);
#187=ORIENTED_EDGE('',*,*,#147,.F.);
#188=ORIENTED_EDGE('',*,*,#149,.T.);
#189=ORIENTED_EDGE('',*,*,#150,.T.);
#190=ORIENTED_EDGE('',*,*,#144,.F.);
#191=ORIENTED_EDGE('',*,*,#141,.F.);
#192=ORIENTED_EDGE('',*,*,#151,.F.);
#193=ORIENTED_EDGE('',*,*,#152,.T.);
#194=ORIENTED_EDGE('',*,*,#153,.T.);
#195=ORIENTED_EDGE('',*,*,#154,.T.);
#196=ORIENTED_EDGE('',*,*,#155,.T.);
#197=ORIENTED_EDGE('',*,*,#153,.F.);
#198=ORIENTED_EDGE('',*,*,#146,.F.);
#199=ORIENTED_EDGE('',*,*,#156,.T.);
#200=ORIENTED_EDGE('',*,*,#154,.F.);
#201=ORIENTED_EDGE('',*,*,#155,.F.);
#202=ORIENTED_EDGE('',*,*,#156,.F.);
#203=ORIENTED_EDGE('',*,*,#145,.F.);
#204=ORIENTED_EDGE('',*,*,#150,.F.);
#205=ORIENTED_EDGE('',*,*,#149,.F.);
#206=ORIENTED_EDGE('',*,*,#152,.F.);
#207=ORIENTED_EDGE('',*,*,#157,.T.);
#208=ORIENTED_EDGE('',*,*,#148,.T.);
#209=ORIENTED_EDGE('',*,*,#158,.T.);
#210=ORIENTED_EDGE('',*,*,#159,.T.);
#211=ORIENTED_EDGE('',*,*,#158,.F.);
#212=ORIENTED_EDGE('',*,*,#159,.F.);
#213=ORIENTED_EDGE('',*,*,#160,.T.);
#214=ORIENTED_EDGE('',*,*,#161,.F.);
#215=ORIENTED_EDGE('',*,*,#162,.T.);
#216=ORIENTED_EDGE('',*,*,#163,.F.);
#217=ORIENTED_EDGE('',*,*,#164,.F.);
#218=ORIENTED_EDGE('',*,*,#165,.F.);
#219=ORIENTED_EDGE('',*,*,#166,.F.);
#220=ORIENTED_EDGE('',*,*,#162,.F.);
#221=ORIENTED_EDGE('',*,*,#167,.T.);
#222=ORIENTED_EDGE('',*,*,#168,.T.);
#223=ORIENTED_EDGE('',*,*,#160,.F.);
#224=ORIENTED_EDGE('',*,*,#168,.F.);
#225=ORIENTED_EDGE('',*,*,#167,.F.);
#226=ORIENTED_EDGE('',*,*,#169,.T.);
#227=ORIENTED_EDGE('',*,*,#170,.T.);
#228=ORIENTED_EDGE('',*,*,#171,.T.);
#229=ORIENTED_EDGE('',*,*,#164,.T.);
#230=ORIENTED_EDGE('',*,*,#163,.T.);
#231=ORIENTED_EDGE('',*,*,#172,.T.);
#232=ORIENTED_EDGE('',*,*,#169,.F.);
#233=ORIENTED_EDGE('',*,*,#172,.F.);
#234=ORIENTED_EDGE('',*,*,#166,.T.);
#235=ORIENTED_EDGE('',*,*,#165,.T.);
#236=ORIENTED_EDGE('',*,*,#171,.F.);
#237=ORIENTED_EDGE('',*,*,#157,.F.);
#238=ORIENTED_EDGE('',*,*,#173,.T.);
#239=ORIENTED_EDGE('',*,*,#174,.T.);
#240=ORIENTED_EDGE('',*,*,#173,.F.);
#241=ORIENTED_EDGE('',*,*,#174,.F.);
#242=ORIENTED_EDGE('',*,*,#161,.T.);
#243=ORIENTED_EDGE('',*,*,#151,.T.);
#244=ORIENTED_EDGE('',*,*,#175,.T.);
#245=ORIENTED_EDGE('',*,*,#176,.F.);
#246=ORIENTED_EDGE('',*,*,#175,.F.);
#247=ORIENTED_EDGE('',*,*,#176,.T.);
#248=ORIENTED_EDGE('',*,*,#170,.F.);
#249=TOROIDAL_SURFACE('',#288,90.4999999999999,0.5);
#250=TOROIDAL_SURFACE('',#300,90.5,0.5);
#251=TOROIDAL_SURFACE('',#308,90.4999999999999,0.5);
#252=ADVANCED_FACE('',(#60),#249,.T.);
#253=ADVANCED_FACE('',(#61),#53,.T.);
#254=ADVANCED_FACE('',(#62,#15),#21,.T.);
#255=ADVANCED_FACE('',(#63),#250,.T.);
#256=ADVANCED_FACE('',(#64),#54,.T.);
#257=ADVANCED_FACE('',(#65,#16),#22,.T.);
#258=ADVANCED_FACE('',(#66),#251,.T.);
#259=ADVANCED_FACE('',(#67,#17),#23,.T.);
#260=ADVANCED_FACE('',(#68),#55,.F.);
#261=ADVANCED_FACE('',(#69),#56,.F.);
#262=ADVANCED_FACE('',(#70,#18),#24,.T.);
#263=ADVANCED_FACE('',(#71),#57,.F.);
#264=ADVANCED_FACE('',(#72),#58,.F.);
#265=ADVANCED_FACE('',(#73,#19),#25,.T.);
#266=ADVANCED_FACE('',(#74),#59,.F.);
#267=ADVANCED_FACE('',(#75,#20),#26,.T.);
#268=CLOSED_SHELL('',(#252,#253,#254,#255,#256,#257,#258,#259,#260,#261,
#262,#263,#264,#265,#266,#267));
#269=DERIVED_UNIT_ELEMENT(#271,1.);
#270=DERIVED_UNIT_ELEMENT(#510,-3.);
#271=(
MASS_UNIT()
NAMED_UNIT(*)
SI_UNIT($,.GRAM.)
);
#272=DERIVED_UNIT((#269,#270));
#273=MEASURE_REPRESENTATION_ITEM('density measure',
POSITIVE_RATIO_MEASURE(1.),#272);
#274=PROPERTY_DEFINITION_REPRESENTATION(#279,#276);
#275=PROPERTY_DEFINITION_REPRESENTATION(#280,#277);
#276=REPRESENTATION('material name',(#278),#507);
#277=REPRESENTATION('density',(#273),#507);
#278=DESCRIPTIVE_REPRESENTATION_ITEM('PVC','PVC');
#279=PROPERTY_DEFINITION('material property','material name',#517);
#280=PROPERTY_DEFINITION('material property','density of part',#517);
#281=DATE_TIME_ROLE('creation_date');
#282=APPLIED_DATE_AND_TIME_ASSIGNMENT(#283,#281,(#517));
#283=DATE_AND_TIME(#284,#285);
#284=CALENDAR_DATE(2021,19,10);
#285=LOCAL_TIME(0,0,0.,#286);
#286=COORDINATED_UNIVERSAL_TIME_OFFSET(0,0,.BEHIND.);
#287=AXIS2_PLACEMENT_3D('placement',#428,#331,#332);
#288=AXIS2_PLACEMENT_3D('',#429,#333,#334);
#289=AXIS2_PLACEMENT_3D('',#431,#335,#336);
#290=AXIS2_PLACEMENT_3D('',#433,#337,#338);
#291=AXIS2_PLACEMENT_3D('',#434,#339,#340);
#292=AXIS2_PLACEMENT_3D('',#435,#341,#342);
#293=AXIS2_PLACEMENT_3D('',#439,#344,#345);
#294=AXIS2_PLACEMENT_3D('',#441,#346,#347);
#295=AXIS2_PLACEMENT_3D('',#444,#349,#350);
#296=AXIS2_PLACEMENT_3D('',#446,#351,#352);
#297=AXIS2_PLACEMENT_3D('',#447,#353,#354);
#298=AXIS2_PLACEMENT_3D('',#448,#355,#356);
#299=AXIS2_PLACEMENT_3D('',#450,#357,#358);
#300=AXIS2_PLACEMENT_3D('',#451,#359,#360);
#301=AXIS2_PLACEMENT_3D('',#453,#361,#362);
#302=AXIS2_PLACEMENT_3D('',#455,#363,#364);
#303=AXIS2_PLACEMENT_3D('',#457,#365,#366);
#304=AXIS2_PLACEMENT_3D('',#458,#367,#368);
#305=AXIS2_PLACEMENT_3D('',#459,#369,#370);
#306=AXIS2_PLACEMENT_3D('',#461,#372,#373);
#307=AXIS2_PLACEMENT_3D('',#463,#374,#375);
#308=AXIS2_PLACEMENT_3D('',#464,#376,#377);
#309=AXIS2_PLACEMENT_3D('',#466,#378,#379);
#310=AXIS2_PLACEMENT_3D('',#467,#380,#381);
#311=AXIS2_PLACEMENT_3D('',#468,#382,#383);
#312=AXIS2_PLACEMENT_3D('',#470,#384,#385);
#313=AXIS2_PLACEMENT_3D('',#471,#386,#387);
#314=AXIS2_PLACEMENT_3D('',#473,#388,#389);
#315=AXIS2_PLACEMENT_3D('',#477,#391,#392);
#316=AXIS2_PLACEMENT_3D('',#479,#393,#394);
#317=AXIS2_PLACEMENT_3D('',#481,#395,#396);
#318=AXIS2_PLACEMENT_3D('',#482,#397,#398);
#319=AXIS2_PLACEMENT_3D('',#483,#399,#400);
#320=AXIS2_PLACEMENT_3D('',#485,#401,#402);
#321=AXIS2_PLACEMENT_3D('',#487,#404,#405);
#322=AXIS2_PLACEMENT_3D('',#489,#406,#407);
#323=AXIS2_PLACEMENT_3D('',#490,#408,#409);
#324=AXIS2_PLACEMENT_3D('',#492,#410,#411);
#325=AXIS2_PLACEMENT_3D('',#495,#414,#415);
#326=AXIS2_PLACEMENT_3D('',#498,#417,#418);
#327=AXIS2_PLACEMENT_3D('',#499,#419,#420);
#328=AXIS2_PLACEMENT_3D('',#500,#421,#422);
#329=AXIS2_PLACEMENT_3D('',#503,#424,#425);
#330=AXIS2_PLACEMENT_3D('',#504,#426,#427);
#331=DIRECTION('axis',(0.,0.,1.));
#332=DIRECTION('refdir',(1.,0.,0.));
#333=DIRECTION('center_axis',(-1.22464679914735E-16,0.,-1.));
#334=DIRECTION('ref_axis',(-1.,0.,0.));
#335=DIRECTION('center_axis',(1.22464679914735E-16,0.,1.));
#336=DIRECTION('ref_axis',(1.,0.,-1.22464679914735E-16));
#337=DIRECTION('center_axis',(-1.22464679914735E-16,-1.,1.49975978266186E-32));
#338=DIRECTION('ref_axis',(1.,-1.22464679914735E-16,0.));
#339=DIRECTION('center_axis',(-1.22464679914735E-16,0.,-1.));
#340=DIRECTION('ref_axis',(1.,0.,-1.22765045992205E-16));
#341=DIRECTION('center_axis',(-1.22464679914735E-16,0.,-1.));
#342=DIRECTION('ref_axis',(-1.,0.,1.11022302462516E-16));
#343=DIRECTION('',(1.22464679914735E-16,0.,1.));
#344=DIRECTION('center_axis',(-0.923879532511287,0.,-0.382683432365089));
#345=DIRECTION('ref_axis',(0.382683432365089,0.,-0.923879532511287));
#346=DIRECTION('center_axis',(-0.382683432365091,0.,0.923879532511286));
#347=DIRECTION('ref_axis',(-0.923879532511286,0.,-0.382683432365091));
#348=DIRECTION('',(1.22464679914735E-16,0.,1.));
#349=DIRECTION('center_axis',(1.22464679914735E-16,0.,1.));
#350=DIRECTION('ref_axis',(1.,0.,-1.22765045992205E-16));
#351=DIRECTION('center_axis',(-0.382683432365091,0.,0.923879532511286));
#352=DIRECTION('ref_axis',(-0.923879532511286,0.,-0.382683432365091));
#353=DIRECTION('center_axis',(-0.923879532511287,0.,-0.382683432365089));
#354=DIRECTION('ref_axis',(0.382683432365089,0.,-0.923879532511287));
#355=DIRECTION('center_axis',(-1.22464679914735E-16,0.,-1.));
#356=DIRECTION('ref_axis',(-1.,0.,1.22464679914735E-16));
#357=DIRECTION('center_axis',(-1.22464679914735E-16,0.,-1.));
#358=DIRECTION('ref_axis',(1.,0.,-1.22464679914735E-16));
#359=DIRECTION('center_axis',(0.707106781186547,0.,-0.707106781186548));
#360=DIRECTION('ref_axis',(-0.707106781186548,0.,-0.707106781186547));
#361=DIRECTION('center_axis',(-0.707106781186547,0.,0.707106781186548));
#362=DIRECTION('ref_axis',(1.90628953404045E-18,-1.,1.90628953404045E-18));
#363=DIRECTION('center_axis',(-8.65956056235494E-17,-1.,-8.65956056235493E-17));
#364=DIRECTION('ref_axis',(0.707106781186548,-1.22464679914735E-16,0.707106781186547));
#365=DIRECTION('center_axis',(0.707106781186547,0.,-0.707106781186548));
#366=DIRECTION('ref_axis',(2.28754744084854E-18,-1.,1.52503162723236E-18));
#367=DIRECTION('center_axis',(0.707106781186547,0.,-0.707106781186548));
#368=DIRECTION('ref_axis',(2.28754744084854E-18,-1.,1.52503162723236E-18));
#369=DIRECTION('center_axis',(-0.707106781186547,0.,0.707106781186548));
#370=DIRECTION('ref_axis',(0.,1.,0.));
#371=DIRECTION('',(0.707106781186547,0.,-0.707106781186548));
#372=DIRECTION('center_axis',(0.707106781186547,0.,-0.707106781186548));
#373=DIRECTION('ref_axis',(-0.707106781186548,0.,-0.707106781186547));
#374=DIRECTION('center_axis',(-0.707106781186547,0.,0.707106781186548));
#375=DIRECTION('ref_axis',(-0.707106781186548,0.,-0.707106781186547));
#376=DIRECTION('center_axis',(-1.22464679914735E-16,0.,-1.));
#377=DIRECTION('ref_axis',(-1.,0.,1.22612542829482E-16));
#378=DIRECTION('center_axis',(-1.22464679914735E-16,-1.,1.49975978266186E-32));
#379=DIRECTION('ref_axis',(1.,-1.22464679914735E-16,-1.22765045992205E-16));
#380=DIRECTION('center_axis',(-1.22464679914735E-16,0.,-1.));
#381=DIRECTION('ref_axis',(1.,0.,-1.22464679914735E-16));
#382=DIRECTION('center_axis',(1.22464679914735E-16,0.,1.));
#383=DIRECTION('ref_axis',(1.,0.,-1.22464679914735E-16));
#384=DIRECTION('center_axis',(-1.22464679914735E-16,0.,-1.));
#385=DIRECTION('ref_axis',(1.,0.,-1.22464679914735E-16));
#386=DIRECTION('center_axis',(-0.707106781186547,0.,0.707106781186548));
#387=DIRECTION('ref_axis',(-0.707106781186548,0.,-0.707106781186547));
#388=DIRECTION('center_axis',(-0.707106781186547,0.,0.707106781186548));
#389=DIRECTION('ref_axis',(-0.707106781186548,0.,-0.707106781186547));
#390=DIRECTION('',(-0.707106781186547,0.,0.707106781186548));
#391=DIRECTION('center_axis',(0.382683432365087,0.,-0.923879532511288));
#392=DIRECTION('ref_axis',(-0.923879532511288,0.,-0.382683432365087));
#393=DIRECTION('center_axis',(0.923879532511287,0.,0.38268343236509));
#394=DIRECTION('ref_axis',(0.38268343236509,0.,-0.923879532511287));
#395=DIRECTION('center_axis',(0.923879532511287,0.,0.38268343236509));
#396=DIRECTION('ref_axis',(0.38268343236509,0.,-0.923879532511287));
#397=DIRECTION('center_axis',(0.382683432365087,0.,-0.923879532511288));
#398=DIRECTION('ref_axis',(-0.923879532511288,0.,-0.382683432365087));
#399=DIRECTION('center_axis',(-1.22464679914735E-16,0.,-1.));
#400=DIRECTION('ref_axis',(-1.,0.,1.11022302462516E-16));
#401=DIRECTION('center_axis',(-1.22464679914735E-16,0.,-1.));
#402=DIRECTION('ref_axis',(1.,0.,-1.22464679914735E-16));
#403=DIRECTION('',(1.22464679914735E-16,0.,1.));
#404=DIRECTION('center_axis',(1.22464679914735E-16,0.,1.));
#405=DIRECTION('ref_axis',(1.,0.,-1.22464679914735E-16));
#406=DIRECTION('center_axis',(-1.22464679914735E-16,0.,-1.));
#407=DIRECTION('ref_axis',(1.,0.,-1.22464679914735E-16));
#408=DIRECTION('center_axis',(-1.22464679914735E-16,0.,-1.));
#409=DIRECTION('ref_axis',(-1.,0.,1.11022302462516E-16));
#410=DIRECTION('center_axis',(-1.22464679914735E-16,0.,-1.));
#411=DIRECTION('ref_axis',(1.,0.,-1.22464679914735E-16));
#412=DIRECTION('',(1.22464679914735E-16,0.,1.));
#413=DIRECTION('',(1.22464679914735E-16,0.,1.));
#414=DIRECTION('center_axis',(-0.707106781186547,0.,0.707106781186548));
#415=DIRECTION('ref_axis',(-0.707106781186548,0.,-0.707106781186547));
#416=DIRECTION('',(-0.707106781186547,0.,0.707106781186548));
#417=DIRECTION('center_axis',(-0.707106781186547,0.,0.707106781186548));
#418=DIRECTION('ref_axis',(-0.707106781186548,0.,-0.707106781186547));
#419=DIRECTION('center_axis',(0.707106781186547,0.,-0.707106781186548));
#420=DIRECTION('ref_axis',(-0.707106781186548,0.,-0.707106781186547));
#421=DIRECTION('center_axis',(-1.22464679914735E-16,0.,-1.));
#422=DIRECTION('ref_axis',(-1.,0.,1.11022302462516E-16));
#423=DIRECTION('',(1.22464679914735E-16,0.,1.));
#424=DIRECTION('center_axis',(-1.22464679914735E-16,0.,-1.));
#425=DIRECTION('ref_axis',(1.,0.,-1.22464679914735E-16));
#426=DIRECTION('center_axis',(-1.22464679914735E-16,0.,-1.));
#427=DIRECTION('ref_axis',(-1.,0.,1.22464679914735E-16));
#428=CARTESIAN_POINT('',(0.,0.,0.));
#429=CARTESIAN_POINT('Origin',(-5.10065391844873E-14,0.,-416.5));
#430=CARTESIAN_POINT('',(90.4999999999998,-1.10830535322835E-14,-417.));
#431=CARTESIAN_POINT('Origin',(-5.10677715244446E-14,0.,-417.));
#432=CARTESIAN_POINT('',(90.9999999999999,-1.11442858722409E-14,-416.5));
#433=CARTESIAN_POINT('Origin',(90.4999999999998,-1.10830535322835E-14,-416.5));
#434=CARTESIAN_POINT('Origin',(-5.10065391844873E-14,0.,-416.5));
#435=CARTESIAN_POINT('Origin',(-2.55338857622223E-14,0.,-208.5));
#436=CARTESIAN_POINT('',(90.9999999999998,-1.11442858722409E-14,-344.693434175952));
#437=CARTESIAN_POINT('',(90.9999999999999,-1.11442858722409E-14,-208.5));
#438=CARTESIAN_POINT('',(0.,-91.,-125.));
#439=CARTESIAN_POINT('Origin',(0.,0.,-125.));
#440=CARTESIAN_POINT('',(90.9999999999999,-1.11442858722409E-14,-87.3065658240485));
#441=CARTESIAN_POINT('Origin',(-3.5527136788005E-14,0.,-125.));
#442=CARTESIAN_POINT('',(90.9999999999999,-1.11442858722409E-14,-0.499999999999972));
#443=CARTESIAN_POINT('',(90.9999999999999,-1.11442858722409E-14,-208.5));
#444=CARTESIAN_POINT('Origin',(-6.12323399573628E-17,0.,-0.499999999999972));
#445=CARTESIAN_POINT('',(0.,91.,-125.));
#446=CARTESIAN_POINT('Origin',(-3.5527136788005E-14,0.,-125.));
#447=CARTESIAN_POINT('Origin',(0.,0.,-125.));
#448=CARTESIAN_POINT('Origin',(-80.0000000000002,0.,-417.));
#449=CARTESIAN_POINT('',(80.0000000000001,-9.79717439317884E-15,-417.));
#450=CARTESIAN_POINT('Origin',(-5.10677715244446E-14,0.,-417.));
#451=CARTESIAN_POINT('Origin',(206.121626715878,0.,-331.121626715879));
#452=CARTESIAN_POINT('',(270.468343803854,-1.10830535322835E-14,-267.48201640909));
#453=CARTESIAN_POINT('Origin',(206.475180106472,0.,-331.475180106472));
#454=CARTESIAN_POINT('',(270.468343803854,-1.11442858722409E-14,-266.774909627903));
#455=CARTESIAN_POINT('Origin',(270.114790413261,-1.10830535322835E-14,-267.128463018496));
#456=CARTESIAN_POINT('',(206.121626715878,-91.,-331.121626715879));
#457=CARTESIAN_POINT('Origin',(206.121626715878,0.,-331.121626715879));
#458=CARTESIAN_POINT('Origin',(206.121626715878,0.,-331.121626715879));
#459=CARTESIAN_POINT('Origin',(206.475180106472,0.,-331.475180106472));
#460=CARTESIAN_POINT('',(206.475180106472,-91.,-331.475180106472));
#461=CARTESIAN_POINT('Origin',(206.475180106472,0.,-331.475180106472));
#462=CARTESIAN_POINT('',(263.043722601396,9.79717439317883E-15,-274.906637611548));
#463=CARTESIAN_POINT('Origin',(206.475180106472,0.,-331.475180106472));
#464=CARTESIAN_POINT('Origin',(-6.12323399573628E-17,0.,-0.499999999999972));
#465=CARTESIAN_POINT('',(90.4999999999999,-1.10830535322835E-14,-4.43130374151661E-15));
#466=CARTESIAN_POINT('Origin',(90.4999999999999,-1.10830535322835E-14,-0.499999999999983));
#467=CARTESIAN_POINT('Origin',(2.1570415377137E-30,0.,6.66133814775094E-15));
#468=CARTESIAN_POINT('Origin',(-90.9999999999998,0.,1.78482113850025E-14));
#469=CARTESIAN_POINT('',(80.,-9.79717439317882E-15,0.));
#470=CARTESIAN_POINT('Origin',(1.97215226305253E-30,0.,8.88178419700125E-15));
#471=CARTESIAN_POINT('Origin',(145.663996924429,0.,-270.663996924429));
#472=CARTESIAN_POINT('',(193.888679401351,8.35209117018495E-15,-222.439314447507));
#473=CARTESIAN_POINT('Origin',(145.663996924429,0.,-270.663996924429));
#474=CARTESIAN_POINT('',(68.2000000000002,8.35209117018495E-15,-96.7506350461554));
#475=CARTESIAN_POINT('',(193.888679401351,8.35209117018495E-15,-222.439314447507));
#476=CARTESIAN_POINT('',(1.77635683940025E-14,68.2,-125.));
#477=CARTESIAN_POINT('Origin',(-1.77635683940025E-14,0.,-125.));
#478=CARTESIAN_POINT('',(68.2000000000002,-8.35209117018497E-15,-289.649364953846));
#479=CARTESIAN_POINT('Origin',(3.5527136788005E-14,0.,-125.));
#480=CARTESIAN_POINT('',(1.77635683940025E-14,-68.2,-125.));
#481=CARTESIAN_POINT('Origin',(3.5527136788005E-14,0.,-125.));
#482=CARTESIAN_POINT('Origin',(-1.77635683940025E-14,0.,-125.));
#483=CARTESIAN_POINT('Origin',(-5.26598123633362E-15,0.,-43.));
#484=CARTESIAN_POINT('',(80.,-9.79717439317882E-15,-86.));
#485=CARTESIAN_POINT('Origin',(-1.05319624726672E-14,0.,-86.));
#486=CARTESIAN_POINT('',(80.,-9.79717439317882E-15,-43.));
#487=CARTESIAN_POINT('Origin',(-80.,0.,-86.));
#488=CARTESIAN_POINT('',(68.2000000000001,-8.35209117018497E-15,-86.));
#489=CARTESIAN_POINT('Origin',(-1.05319624726672E-14,0.,-86.));
#490=CARTESIAN_POINT('Origin',(-2.55338857622223E-14,0.,-208.5));
#491=CARTESIAN_POINT('',(68.2000000000001,-8.35209117018497E-15,-331.));
#492=CARTESIAN_POINT('Origin',(-4.05358090517774E-14,0.,-331.));
#493=CARTESIAN_POINT('',(68.2000000000001,-8.35209117018497E-15,-208.5));
#494=CARTESIAN_POINT('',(68.2000000000001,-8.35209117018497E-15,-208.5));
#495=CARTESIAN_POINT('Origin',(206.475180106472,0.,-331.475180106472));
#496=CARTESIAN_POINT('',(202.232539419352,9.79717439317883E-15,-214.095454429505));
#497=CARTESIAN_POINT('',(263.043722601396,9.79717439317883E-15,-274.906637611548));
#498=CARTESIAN_POINT('Origin',(145.663996924429,0.,-270.663996924429));
#499=CARTESIAN_POINT('Origin',(145.663996924429,0.,-270.663996924429));
#500=CARTESIAN_POINT('Origin',(-4.5801790288111E-14,0.,-374.));
#501=CARTESIAN_POINT('',(80.0000000000001,-9.79717439317884E-15,-331.));
#502=CARTESIAN_POINT('',(80.0000000000001,-9.79717439317884E-15,-374.));
#503=CARTESIAN_POINT('Origin',(-4.05358090517774E-14,0.,-331.));
#504=CARTESIAN_POINT('Origin',(-68.2000000000003,0.,-331.));
#505=UNCERTAINTY_MEASURE_WITH_UNIT(LENGTH_MEASURE(0.01),#509,
'DISTANCE_ACCURACY_VALUE',
'Maximum model space distance between geometric entities at asserted c
onnectivities');
#506=UNCERTAINTY_MEASURE_WITH_UNIT(LENGTH_MEASURE(0.01),#509,
'DISTANCE_ACCURACY_VALUE',
'Maximum model space distance between geometric entities at asserted c
onnectivities');
#507=(
GEOMETRIC_REPRESENTATION_CONTEXT(3)
GLOBAL_UNCERTAINTY_ASSIGNED_CONTEXT((#505))
GLOBAL_UNIT_ASSIGNED_CONTEXT((#509,#511,#512))
REPRESENTATION_CONTEXT('','3D')
);
#508=(
GEOMETRIC_REPRESENTATION_CONTEXT(3)
GLOBAL_UNCERTAINTY_ASSIGNED_CONTEXT((#506))
GLOBAL_UNIT_ASSIGNED_CONTEXT((#509,#511,#512))
REPRESENTATION_CONTEXT('','3D')
);
#509=(
LENGTH_UNIT()
NAMED_UNIT(*)
SI_UNIT(.MILLI.,.METRE.)
);
#510=(
LENGTH_UNIT()
NAMED_UNIT(*)
SI_UNIT(.CENTI.,.METRE.)
);
#511=(
NAMED_UNIT(*)
PLANE_ANGLE_UNIT()
SI_UNIT($,.RADIAN.)
);
#512=(
NAMED_UNIT(*)
SI_UNIT($,.STERADIAN.)
SOLID_ANGLE_UNIT()
);
#513=SHAPE_DEFINITION_REPRESENTATION(#514,#515);
#514=PRODUCT_DEFINITION_SHAPE('',$,#517);
#515=SHAPE_REPRESENTATION('',(#287),#507);
#516=PRODUCT_DEFINITION_CONTEXT('part definition',#521,'design');
#517=PRODUCT_DEFINITION('TY40U-160','TY40U-160',#518,#516);
#518=PRODUCT_DEFINITION_FORMATION('0',$,#523);
#519=PRODUCT_RELATED_PRODUCT_CATEGORY('TY40U-160','TY40U-160',(#523));
#520=APPLICATION_PROTOCOL_DEFINITION('international standard',
'automotive_design',2009,#521);
#521=APPLICATION_CONTEXT(
'Core Data for Automotive Mechanical Design Process');
#522=PRODUCT_CONTEXT('part definition',#521,'mechanical');
#523=PRODUCT('TY40U-160','TY40U-160','PVC 45\X\B0 Wye, \X\D8160, PN16',
(#522));
#524=PRESENTATION_STYLE_ASSIGNMENT((#525));
#525=SURFACE_STYLE_USAGE(.BOTH.,#528);
#526=SURFACE_STYLE_RENDERING_WITH_PROPERTIES($,#532,(#527));
#527=SURFACE_STYLE_TRANSPARENT(0.);
#528=SURFACE_SIDE_STYLE('',(#529,#526));
#529=SURFACE_STYLE_FILL_AREA(#530);
#530=FILL_AREA_STYLE('',(#531));
#531=FILL_AREA_STYLE_COLOUR('',#532);
#532=COLOUR_RGB('',0.258823529411765,0.298039215686275,0.337254901960784);
ENDSEC;
END-ISO-10303-21;
